Relentless

(/) Slide Up  (\) Slide Down  (h) Hammer On  (p) Pull Off  (b) Bend (r) Release (v) Vibrato
E|-------------------------------------------------
B|-------------------------------------------------
G|-------------------------------------------------
D|-------------------------------------------------
A|---7p5-----------7p5-----------7p5---7p5---7p5---
E|---------0---0---------0---0---------------------



E|-----------
B|-----------
G|-----------
D|---5---7---
A|---3---5---
E|-----------



E|-----------
B|-----------
G|-----------
D|-----------
A|---9---8---
E|---8---7---



E|----------------x-----------x--------x--------------------x-------------------------
B|----------------x-----------x--------x--------------------x-------------------------
G|----------------x-----------x--------x--------------------x-------------------------
D|----------------x-----------x--------x--------------------x-------------------------
A|----------------5-----------5--------8--------------------5-----------5----7--------
E|----0--0--0--0--3--0--0--0--3--0--0--6--------0--0--0--0--x--0--0--0--3----5--------



E|------------------------------------
B|------------------------------------
G|------------------------------------
D|------------------------------------
A|-----7--------8--------10p9---------
E|--0-----6--7-----7--8--------8--7v--



E|-----
B|-----
G|-----
D|-----
A|-----
E|--5--



E|------------
B|------------
G|------------
D|--7------9--
A|--5------7--
E|------------



E|------------
B|------------
G|------------
D|------------
A|--5------7--
E|--3------5--



E|---------------------------------------------------------------
B|---------------------------------------------------------------
G|---------------------------------------------------------------
D|--------------------------7--9--------------------------10--9--
A|--------------------------5--7--------------------------8---7--
E|--0--2--3--0--5--0--8--7--------0--2--3--0--5--0--8--7---------
http://www.guitartabcreator.com
Guitar Tab Creator is intended to store guitar tab created through the tool. It currently does not support in-line text editing. Any text you place in here will be lost. If you need to comment on your tab, please use the "Tab Notes" section located below.