Beech Spring

(/) Slide Up  (\) Slide Down  (h) Hammer On  (p) Pull Off  (b) Bend (r) Release (v) Vibrato

E|----------------------------------------------------
B|----------------------------------------------------
G|----------------------------------------------------
D|--0--0--2--0--4--4--2--0-----0--0-------------0--0--
A|--------------------------0--------2--0--0h2-----0--
E|-------------------------------------------------0--



E|---------------------------------------------------------
B|---------------------------------------------------------
G|---------------------------------------------------2-----
D|--0--0--0h2--0--4--4--2--0-----0--0-------------0--0-----
A|----------------------------2--------2--0--0h2-----0-----
E|---------------------------------------------------0-----



E|----------------------------------------------------------------
B|----------------------------------------------------------------
G|--------------2--2--2h4--2--------------------2--2--------------
D|--0-----0--4----------------4--0--0-----0--4--------4--2--0-----
A|-----0-------------------------------0-----------------------2--
E|----------------------------------------------------------------



E|-------------------------------------------------2--
B|-------------------------------------------------3--
G|--4--2-------------------------------------------2--
D|--------4--0--4--4--2--0-----0--0-------------0--0--
A|--------------------------2--------2--0--0h2-----0--
E|-------------------------------------------------0--
http://www.guitartabcreator.com
Guitar Tab Creator is intended to store guitar tab created through the tool. It currently does not support in-line text editing. Any text you place in here will be lost. If you need to comment on your tab, please use the "Tab Notes" section located below.