Rotting Stump (guitar in drop D)

(/) Slide Up  (\) Slide Down  (h) Hammer On  (p) Pull Off  (b) Bend (r) Release (v) Vibrato

E|---------------------------------|---------------------------------|-
B|---------------------------------|---------------------------------|-
G|---------------------------------|---------------------------------|-
D|-6-6-6-6-5-5-5-5-4-4-4-4-3-3-3-3-|-5-5-5-5-4-4-4-4-3-3-3-3-2-2-2-2-|-
A|-6-6-6-6-5-5-5-5-4-4-4-4-3-3-3-3-|-5-5-5-5-4-4-4-4-3-3-3-3-2-2-2-2-|-
E|-6-6-6-6-5-5-5-5-4-4-4-4-3-3-3-3-|-5-5-5-5-4-4-4-4-3-3-3-3-2-2-2-2-|-



E|--------------------------------------------------|-----------------------------------------|--
B|--------------------------------------------------|-----------------------------------------|--
G|--------------------------------------------------|-----------------------------------------|--
D|--4--4--4--4--3--3--3--3--2--2--2--2--1--1--1--1--|--3--3--3--3--2--2--2--2--1--1--1--1--0--|--
A|--4--4--4--4--3--3--3--3--2--2--2--2--1--1--1--1--|--3--3--3--3--2--2--2--2--1--1--1--1--0--|--
E|--4--4--4--4--3--3--3--3--2--2--2--2--1--1--1--1--|--3--3--3--3--2--2--2--2--1--1--1--1--0--|--
http://www.guitartabcreator.com
Guitar Tab Creator is intended to store guitar tab created through the tool. It currently does not support in-line text editing. Any text you place in here will be lost. If you need to comment on your tab, please use the "Tab Notes" section located below.