Viking Death March

Song: Viking Death March
Album: Dead Silence
Band: Billy Talent
Tuning: Drop D
_________________________________________________________________________________________________
Intro/Pre-Chorus:

(~) (~) (~) (~) (~) (~)
E|------------------------|------------------------|
B|------------------------|------------------------|
G|------------------------|------------------------|
D|5-55555-55555-55555555--|5-55555-55555-55555555--|
A|5-55553-33331-11115555--|5-55553-33331-11115555--|
D|5-55553-33331-11115555--|5-55553-33331-11115555--|
_________________________________________________________________________________________________
Intro Riff/Chorus:

(~) (~) (~) (~) (~) (~)
E|------------------------|------------------------|
B|8-----------------------|8-----------------------|
G|7-77775-55553-33337777--|7-77775-55553-33337777--|
D|5-55555-55555-55555555--|5-55555-55555-55555555--|
A|5-55553-33331-11115555--|5-55553-33331-11115555--|
D|5-55553-33331-11115555--|5-55553-33331-11115555--|
_________________________________________________________________________________________________
Verse:

(~) (~) (~) (~) (~) (~) (~) (~)
E|------------------------|------------------------|
B|------------------------|------------------------|
G|7-77777-77777-77777-7777|7-77777-77775-55555-5555|
D|5-55555-55555-55555-5555|5-55555-55553-33333-3333|
A|5-55555-55555-55555-5555|5-55555-55553-33333-3333|
D|5-55555-55555-55555-5557|8-88888-88883-33333-3333|

(~) (~) (~) (~) (~) (~) (~) (~)
E|------------------------|------------2-22222-2222|
B|4-44444-4444------------|------------3-33333-3333|
G|5-55555-55553-33333-3335|7-77777-77772-22222-2222|
D|5-55555-55551-11111-1113|5-55555-55550-00000-0000|
A|3-33333-33331-11111-1113|5-55555-5555------------|
D|------------1-11111-1113|5-55555-5578------------|
_________________________________________________________________________________________________
Bridge (Verse):

(~) (~) (~) (~)
E|----------------------------------------|
B|4--4--4---7--7--7---3--3--3---8--8--8---|
G|5--5--5---7--7--7---3--3--3---8--8--8---|
D|5--5--5---7--7--7---3--3--3---8--8--8---|
A|3--3--3---5--5--5---1--1--1---6--6--6---|
D|----------------------------------------|
_________________________________________________________________________________________________
Bridge (Solo):


E|------------------------|------------------------|------------------------|
B|------------------------|------------------------|------------------------|
G|------------------------|------------------------|------------------------|
D|------------------------|------------------------|------------------------|
A|---------------3--------|---------------3--------|---------------3--------|
D|0-0000400000700-00800078|0-0000400000700-00800078|0-0000400000700-00800078|


E|------------------------|
B|------------------------|
G|------------------------| <------------------- Watch this last bar
D|------------------------| closely.
A|--------------3---------|
D|0-000040000070-080800078|
_________________________________________________________________________________________________
Verse 3 (Alt. Version):

(~) (~) (~) (~) (~) (~) (~) (~)
E|------------------------|----------------------------------|
B|------------------------|----------------------------------|
G|7-77777-77777-77777-7777|10-1010101010-101010105-55555-5555|
D|5-55555-55555-55555-5555|8 -8 8 8 8 8 -8 8 8 8 3-33333-3333|
A|5-55555-55555-55555-5555|8 -8 8 8 8 8 -8 8 8 8 3-33333-3333|
D|5-55555-55555-55555-5557|8 -8 8 8 8 8 -8 8 8 8 3-33333-3333|

(~) (~) (~) (~) (~) (~) (~) (~)
E|------------------------|------------2-22222-2222|
B|4-44444-4444------------|------------3-33333-3333|
G|5-55555-55553-33333-3335|7-77777-77772-22222-2222|
D|5-55555-55551-11111-1113|5-55555-55550-00000-0000|
A|3-33333-33331-11111-1113|5-55555-5555------------|
D|------------1-11111-1113|5-55555-5578------------|
_________________________________________________________________________________________________
Ending Outro:


E|-----------10-101010108-8888-----------|
B|11-11111111x--x-x-x-x-x-xxxx11111111---|
G|x--x-x-x-x-x--x-x-x-x-x-xxxxx-x-x-x----|
D|x--x-x-x-x-7--7-7-7-7-5-5555x-x-x-x----|
A|10-10101010-----------------10101010---|
D|---------------------------------------|


E|-----------10-101010108-8888-----------|
B|11-11111111x--x-x-x-x-x-xxxx8888-------|
G|x--x-x-x-x-x--x-x-x-x-x-xxxx7777-------|
D|x--x-x-x-x-8--8-8-8-8-6-66665555-------|
A|10-10101010-----------------5555-------|
D|----------------------------5555-------|


_________________________________________________________________________________________________
Play:

Intro X2
Intro Riff
Verse 1 X2
Verse Bridge
Pre-Chorus
Chorus
Verse 2 X2
Verse Bridge
Pre-Chorus
Chorus
Solo Bridge
Verse 3 X2
Verse Bridge
Pre Chorus X5
Chorus* X4
Ending Outro
_________________________________________________________________________________________________

(/)=Slide Up (\)=Slide Down (h)=Hammer On (p)=Pull Off (b)=Bend (r)=Release
(v)=Vibrato (~)=Let Ring (PM)...=Palm Mute (x)=No Sound/Muted Sound
(Note)=Ghost Note
Guitar Tab Creator is intended to store guitar tab created through the tool. It currently does not support in-line text editing. Any text you place in here will be lost. If you need to comment on your tab, please use the "Tab Notes" section located below.