Mein Teil

Song: Mein Teil
Album: Reise, Reise
Band: Rammstein
Tuning: Drop C
_________________________________________________________________________________________________
Intro/Screamin Riff:

D|---------------|------------------|
A|---------------|------------------|
F|---------------|------------------|
C|2-0-2---2-0-2-5|2-(0)-2---2-0-2---| X4
G|2-0-2---2-0-2-5|2--0--2---2-0-2---|
C|2-0-2---2-0-2-5|2--0--2---2-0-2---|

D|------------------| |-|
A|------------------| |-|
F|------------------| |-|
C|2-(0)-2---2-0-2---| X4 |2| *At End of Intro
G|2--0--2---2-0-2---| |2|
C|2--0--2---2-0-2---| |2|
________________________________________________________________________________________________
Verse A:


D|--------|--------|---------------|----------------|
A|--------|--------|---------------|----------------|
F|--------|--------|---------------|----------------|
C|--------|--------|---------------|----------------|
G|--------|--------|---------------|----------------|
C|--------|--------|2-0-2---2-0-2-5|2-0-2---2-0-2---|
____________________________________________________________________________________________________
Verse B:


D|----------------|----------------|
A|----------------|----------------|
F|----------------|----------------|
C|----------------|----------------|
G|----------------|--------00000000|
C|2222222222222222|33333333--------|
____________________________________________________________________________________________________
Pre-Chorus:


D|--------|----------------|
A|--------|----------------|
F|--------|----------------|
C|--------|2-0-2---2-0-2---|
G|--------|2-0-2---2-0-2---|
C|--------|2-0-2---2-0-2---|
____________________________________________________________________________________________________
Chorus:


D|---------------|----------------|
A|---------------|----------------|
F|---------------|----------------|
C|2-0-2---2-0-2-5|0-------3-------| X3
G|2-0-2---2-0-2-5|0-------3-------|
C|2-0-2---2-0-2-5|0-------3-------|

D|---------------|----------------|
A|---------------|----------------|
F|---------------|-------(2)------|
C|2-0-2---2-0-2-5|3-------0-------|
G|2-0-2---2-0-2-5|3-------0-------|
C|2-0-2---2-0-2-5|3-------0-------|
____________________________________________________________________________________________________
Play:

Intro

Verse A

Pre-Chorus

Chorus

Verse A

Verse B

Pre-Chorus

Chorus

Screaming Riff

Chorus X2
____________________________________________________________________________________________________

(/)=Slide Up (\)=Slide Down (h)=Hammer On (p)=Pull Off (b)=Bend (r)=Release
(v)=Vibrato (~)=Let Ring (PM)...=Palm Mute (x)=No Sound/Muted Sound
(Note)=Ghost Note

Guitar Tab Creator is intended to store guitar tab created through the tool. It currently does not support in-line text editing. Any text you place in here will be lost. If you need to comment on your tab, please use the "Tab Notes" section located below.