Diamond On A Landmine

Song: Diamond On A Landmine
Album: Billy Talent III
Band: Billy Talent
Tuning: Drop D
_________________________________________________________________________________________________
Intro:

(~) (~) (~) (~) (~) (~) (~) (~) (~) (~) (~) (~) (~)
E|-------------------------------------------------------------------|
B|-------------------------------------------------------------------|
G|6---6---4---4-\-2---2---1---1---------------------------------6-4--|
d|4---4---4---4---0---0---0---0-----6---6---7---7---6---4(h)6-7-----7|
A|------------------2---2---2---2-/-4---4---4---4---4----------------|
D|--0---0---0---0---------------------4---4---4---4---4--------------|

(~) (~) (PM).................
E|-0--------------0--------------------------------------------------|
B|-7--------------2--------------------------------------------------|
G|-6--------------2---------------------------------------------6-4--|
d|-4--------------0-----------------6-6-6-6-7-7-7-7-6-6-4(h)6-7-----7|
A|-5--------------2-----------------4-4-4-4-4-4-4-4-4-4--------------|
D|(0)-------------------------------4-4-4-4-4-4-4-4-4-4--------------|
_________________________________________________________________________________________________
Chorus: *Watch Closely*


E|0-0-0-0-0-0-0-0-0-0-0-0-0-0-0-0|-0-0-0-0-0-0-0-0-0-0-0-0-0-0-0-0-|
B|7-7-7-7-7-7-7-7-2-2-2-2-2-2-2-2|-0-0-0-0-0-0-0-0-0-0-0-0-0-0-0-0-|
G|6-6-6-6-4-4-4-4-2-2-2-2-1-1-1-1|-x-x-x-x-x-x-x-x-x-x-x-x-x-6-x-x-|
d|4-4-4-4-4-4-4-4-0-0-0-0-0-0-0-0|-6-6-6-6-7-7-7-7-6-6-4-6-7-4-9-7-|
A|5-5-5-5-5-5-5-5-2-2-2-2-2-2-2-2|-4-4-4-4-4-4-4-4-4-4-4-4-4-4-4-4-|
D|0-0-0-0-0-0-0-0----------------|-4-4-4-4-4-4-4-4-4-4-4-4-4-4-4-4-|
_________________________________________________________________________________________________
Verse:

(PM). . . . . . . . . . . . . . . .
E|--0---0---0---0---0---0---0---0-|--0---0---0---0---0---0---0---0---|
B|--7---7---7---7---2---2---2---2-|--0---0---0---0---0---0---0---0---|
G|--6---6---4---4---2---2---1---1-|--x---x---x---x---x---x---x---x---|
d|--4---4---4---4---0---0---0---0-|--6---6---7---7---6---6---7---7---|
A|--5---5---5---5---2---2---2---2-|--4---4---4---4---4---4---4---4---|
D|--0---0---0---0-----------------|--4---4---4---4---4---4---4---4---| X4

(PM). . . . . . . . . . . . .
E|--0---0---0---0---0---0---0---0-|--0---0---0---0---0----------------|
B|--7---7---7---7---2---2---2---2-|--0---0---0---0---0----------------|
G|--6---6---4---4---2---2---1---1-|--x---x---x---x---x-----------6-4--|
d|--4---4---4---4---0---0---0---0-|--6---6---7---7---6---4(h)6-7-----7|
A|--5---5---5---5---2---2---2---2-|--4---4---4---4---4----------------|
D|--0---0---0---0-----------------|--4---4---4---4---4----------------|

_________________________________________________________________________________________________
Pre-Chorus A:

(PM). . . . . . . . . . (PM). . . . . . . . . .
E|-----------------------------------|------------------------------------|
B|-----------------------------------|------------------------------------|
G|------------------------------6-4--|------------------------------6-4---|
d|--6-6-6-6-7-7-7-7-6-6-4(h)6-7-----7|--6-6-6-6-7-7-7-7-6-6-4(h)6-7-----7-|
A|--0-0-0-0-0-0-0-0-0-0--------------|--4-4-4-4-4-4-4-4-4-4---------------|
D|--0-0-0-0-0-0-0-0-0-0--------------|--4-4-4-4-4-4-4-4-4-4---------------|

Pre-Chorus B:


E|-----------------------------------|---------------------------------------|
B|-----------------------------------|3-3-3-3-5-5-5-5------------------------|
G|6-6-6-6-7-7-7-7-9-9-9-9-11-11-11-11|x-x-x-x-x-x-x-x-11-11-11-11-13-13-13-13|
d|0-0-0-0-0-0-0-0-0-0-0-0-0--0--0--0-|4-4-4-4-4-4-4-4-9--9--9--9--9--9--9--9-|
A|-----------------------------------|2-2-2-2-2-2-2-2-9--9--9--9--9--9--9--9-|
D|-----------------------------------|----------------9--9--9--9--9--9--9--9-|
_________________________________________________________________________________________________
Chorus End Fill:


E|---------------------------------------|---------------------------------------|
B|3-3-3-3-5-5-5-5------------------------|7-7-7-7-9-9-9-9------------------------|
G|x-x-x-x-x-x-x-x-11-11-11-11-13-13-13-13|x-x-x-x-x-x-x-x-14-14-14-14-16-16-16-16|
d|4-4-4-4-4-4-4-4-9--9--9--9--9--9--9--9-|7-7-7-7-7-7-7-7-12-12-12-12-12-12-12-12|
A|2-2-2-2-2-2-2-2-9--9--9--9--9--9--9--9-|5-5-5-5-5-5-5-5-12-12-12-12-12-12-12-12|
D|----------------9--9--9--9--9--9--9--9-|----------------12-12-12-12-12-12-12-12|
_________________________________________________________________________________________________
Bridge A:

(PM).(~) (PM). (~)
E|----0------------------|-----0------------------|
B|----7------------------|-----0------------------|
G|----6-------------6-4--|-----x-------------6\4--|
d|----4-------4-6-7-----7|-----6-------4/6-7-----7|
A|----5------------------|-----4------------------|
D|--0--------------------|--0-(4)-----------------|

Bridge B:

(PM). . . . . . . . . . . . . . . . . . . .
E|------------------------------|-----------------------------|
B|------------------------------|-----------------------------|
G|-------------------------6\4--|------------------------6\4--|
d|----6---7-6----6---4/6-7-----7|---6---7-6----6---4/6-7-----7|
A|------------7-----------------|-----------7-----------------|
D|--0---0-----------------------|-4---4-----------------------|
_________________________________________________________________________________________________
Ending Chord:

(PM).(~~~~~~~~~~~~)
E|----9----||
B|----7----||
G|----7----||
d|----0----||
A|----0----||
D|--0-0----||
_________________________________________________________________________________________________
Play:

Intro
Chorus X2
Verse
Pre-Chorus A
Pre-Chorus B
Chorus X2
Verse
Pre-Chorus A
Pre-Chorus B
Chorus X3
Chorus End Fill
Bridge A X2
Bridge B X2
Pre-Chorus A
Pre-Chorus B
Chorus X3
Chorus End Fill
Chorus
Chorus End Fill
Ending Chord
_________________________________________________________________________________________________

(/)=Slide Up (\)=Slide Down (h)=Hammer On (p)=Pull Off (b)=Bend (r)=Release
(v)=Vibrato (~)=Let Ring (PM)...=Palm Mute (x)=No Sound/Muted Sound
(Note)=Ghost Note
Guitar Tab Creator is intended to store guitar tab created through the tool. It currently does not support in-line text editing. Any text you place in here will be lost. If you need to comment on your tab, please use the "Tab Notes" section located below.