Cascade (ORIGINAL TRACK!)

Song: Cascade
Album: Love Is A Biohazard
Band: INF3CT10N
Tuning: Drop C#

____________________________________________________________________________________________________
Intro:

(PM) .. . .. . .. . .. . .. . .. . .. . .. .
D#|2---2----2-(2)-2--2|2---2----2-(2)-2--2|2---2----2-(2)-2--2|0---0----0-(0)-0--0|
A#|3-333-(3)3--3333-33|3-333-(3)3--3333-33|3-333-(3)3--3333-33|0-000-(0)0--0000-00|
F#|4-444-(4)4--4444-44|0-000-(0)0--0000-00|4-444-(4)4--4444-44|2-222-(2)2--2222-22|
C#|4---4----4-----4---|0---0----0-----0---|4---4----4-----4---|2---2----2-----2---|
G#|-------------------|-------------------|-------------------|-------------------|
C#|-------------------|-------------------|-------------------|-------------------|

.. . .. . .. . .. . .. . .. . .. . .. .
D#|2---2----2-(2)-2--2|2---2----2-(2)-2--2|2---2----2-(2)-2--2|0---0----0-(0)-0--0|
A#|3-333-(3)3--3333-33|3-333-(3)3--3333-33|3-333-(3)3--3333-33|2-222-(2)2--2222-22|
F#|4-444-(4)4--4444-44|0-000-(0)0--0000-00|4-444-(4)4--4444-44|2-222-(2)2--2222-22|
C#|4---4----4-----4---|0---0----0-----0---|4---4----4-----4---|0---0----0-----0---|
G#|-------------------|-------------------|-------------------|-------------------|
C#|-------------------|-------------------|-------------------|-------------------|
____________________________________________________________________________________________________
Main Riff/Chorus:

(PM) .. .. .. .. .. .. .. .. .. .. .. .. .. .. .. ..
D#|----------------|----------------|----------------|----------------|
A#|----------------|----------------|----------------|----------------|
F#|----------------|----------------|----------------|----------------|
C#|9-999-999-999-99|5-555-555-555-55|9-999-999-999-99|7-777-777-777-77|
G#|9-999-999-999-99|5-555-555-555-55|9-999-999-999-99|7-777-777-777-77|
C#|9-999-999-999-99|5-555-555-555-55|9-999-999-999-99|7-777-777-777-77|

(PM(v).. .. .. ..(v).. .. .. ..(v).. .. .. ..(v).. .. .. ..
D#|-----------------|----------------|----------------|----------------|
A#|-----------------|----------------|----------------|----------------|
F#|-11--------------|7---------------|11--------------|2---------------|
C#|-9-999-999-999-99|5-555-555-555-55|9-999-999-999-99|0-000-000-000-00|
G#|-9-999-999-999-99|5-555-555-555-55|9-999-999-999-99|0-000-000-000-00|
C#|-9-999-999-999-99|5-555-555-555-55|9-999-999-999-99|0-000-000-000-00|
____________________________________________________________________________________________________
Verse:

(PM) .. . . .. . .. . .. . . .. . .. .
D#|2---2----2---3-2--2|2---2----2-(2)-2--2|2---2----2---3-2--2|0---0----0-(0)-0--0|
A#|3-333-(3)3-------33|3-333-(3)3--3333-33|3-333-(3)3-------33|0-000-(0)0--0000-00|
F#|4-444-(4)4-------44|0-000-(0)0--0000-00|4-444-(4)4-------44|2-222-(2)2--2222-22|
C#|4---4----4--------4|0---0----0-----0---|4---4----4--------4|2---2----2-----2---|
G#|-------------------|-------------------|-------------------|-------------------|
C#|-------------------|-------------------|-------------------|-------------------|

.. . . .. . .. . .. . . .. . .. .
D#|2---2----2---3-2--2|2---2----2-(2)-2--2|2---2----2---3-2--2|0---0----0-(0)-0--0|
A#|3-333-(3)3-------33|3-333-(3)3--3333-33|3-333-(3)3-------33|2-222-(2)2--2222-22|
F#|4-444-(4)4-------44|0-000-(0)0--0000-00|4-444-(4)4-------44|2-222-(2)2--2222-22|
C#|4---4----4--------4|0---0----0-----0---|4---4----4--------4|0---0----0-----0---|
G#|-------------------|-------------------|-------------------|-------------------|
C#|-------------------|-------------------|-------------------|-------------------|
____________________________________________________________________________________________________
Pre-Chorus A:

(~) (~) (~)
D#|----------------|
A#|----------------|
F#|----------------|
C#|2-------2---5---|
G#|2-------3---5---|
C#|2-------2---5---|
____________________________________________________________________________________________________
Pre-Chorus B:


D#|----------------|----------------|
A#|----------------|----------------|
F#|----------------|----------------|
C#|----------------|----------------|
G#|----------------|----------------|
C#|4444440055555500|4444440055557777|
____________________________________________________________________________________________________
Solo:


D#|17---15---|14---12---|10-10-10-10-|12-12-12-12-|10-10-10-10-|101010101010101012101010101010--|
A#|----------|----------|--7--7--7--7|--9--9--9--9|--7--7--7--7|------------------------------10|
F#|----------|----------|------------|------------|------------|--------------------------------|
C#|----------|----------|------------|------------|------------|--------------------------------|
G#|----------|----------|------------|------------|------------|--------------------------------|
C#|----------|----------|------------|------------|------------|--------------------------------|


D#|101010101010101012101010101010--|10-10-10---10|1715141215141210|
A#|------------------------------10|10-10-10-10--|----------------|
F#|--------------------------------|-------------|----------------|
C#|--------------------------------|-------------|----------------|
G#|--------------------------------|-------------|----------------|
C#|--------------------------------|-------------|----------------|
____________________________________________________________________________________________________
Ending Chord:

(~)
D#|--------|
A#|--------|
F#|7-------|
C#|7-------|
G#|5-------|
C#|0-------|
____________________________________________________________________________________________________
Play:
Intro*
Main Riff
Verse*
Pre-Chorus A
Chorus
Verse*
Pre-Chorus A
Pre-Chorus B
Chorus
Intro**
Solo
Chorus
Intro**
Ending Chord
_____________________________________________________________________________
(/)=Slide Up (\)=Slide Down (h)=Hammer On (p)=Pull Off (b)=Bend (r)=Release
(v)=Vibrato (~)=Let Ring (PM)...=Palm Mute (x)=No Sound/Muted Sound
(Note)=Ghost Note
Guitar Tab Creator is intended to store guitar tab created through the tool. It currently does not support in-line text editing. Any text you place in here will be lost. If you need to comment on your tab, please use the "Tab Notes" section located below.