ATWA

Song: ATWA
Album: Toxicity
Band: System Of A Down
Tuning: Drop C
_________________________________________________________________________________________________
Intro/Verse:

(~) (~) (~) (~) (~) (~) (~) (~) (~)~~~~~
D|-----------------------------------------------------------------|
A|-----------------------------------------------------------------|
F|----3-------2-------5-------7--------8--------7-------5-------3--|
C|-----------------------------------------------------------------|
G|-----------------------------------------------------------------|
C|5-----5/3-----3/7-----7/8-----8/10-----10\8-----8\7-----7\5-----5|
_________________________________________________________________________________________________
Chorus A:

(PM). . . . ..... . . . . .... . . . . ..... . . . . ....
D|--------------------------------|--------------------------------|
A|--------------------------------|--------------------------------|
F|--------------------------------|--------------------------------|
C|------------5---------------5-x-|------------5---------------5-x-|
G|5-5-5-5-----5---5-5-5-5-----5-x-|5-5-5-5-----5---5-5-5-5-----5-x-|
C|5-5-5-5-55555---5-5-5-5-55555-x-|5-5-5-5-55555---5-5-5-5-55555-x-|

(PM). . . . ..... . . . . .... . . . . ..... . . . . . . (~)~~
D|--------------------------------|------------------------------------|
A|--------------------------------|------------------------------------|
F|--------------------------------|------------------------------------|
C|------------5---------------5-x-|------------5---------------5(h)6---|
G|5-5-5-5-----5---5-5-5-5-----5-x-|5-5-5-5-----5---5-5-5-5-5-5-5(h)6---|
C|5-5-5-5-55555---5-5-5-5-55555-x-|5-5-5-5-55555---5-5-5-5-5-5-5(h)6---|
________________________________________________________________________________________________
Chorus B:

(~) (~)
D|--------------|--------------|
A|--------------|--------------|
F|--------------|--------------|
C|5-5-5-5(h)6---|5-5-5-5(h)6---|
G|5-5-5-5(h)6---|5-5-5-5(h)6---|
C|5-5-5-5(h)6---|5-5-5-5(h)6---|
_________________________________________________________________________________________________
Lead-In Verse 3


D|--------|-----------|------------|----------|
A|8--86--6|10-1011--11|13--1311--11|10--108--8|
F|x--xx--x|x--x x --x |x --x x --x |x --x x--x|
C|5--53--3|7--7 8 --8 |10--108 --8 |7 --7 5--5|
G|--------|-----------|------------|----------|
C|--------|-----------|------------|----------|

(V)VVVVVVVVVVVVVVVVVVVVVVVVVVVVVVVVVVVVVVVVVVVVVVVVVVVVVVVVVVVVVVVV
D|----------------5555555566666666|888888886666666655555555--------|
A|8888888866666666----------------|------------------------88888888|
F|--------------------------------|--------------------------------|
C|--------------------------------|--------------------------------|
G|--------------------------------|--------------------------------|
C|--------------------------------|--------------------------------|
_______________________________________________________________________________________________
Verse 3:

D|----------------|----------------|
A|----------------|----------------|
F|--------2--/3--/|5--\3--\2-------|
C|5--\3---2--/3--/|5--\3--\2---5---|
G|5--\3---0--/1--/|3--\1--\0---5---|
C|5--\3-----------|------------5---|
_________________________________________________________________________________________________
Play:

Intro X2
Verse X2
Chorus A
Verse
Verse X2
Chorus A
Chorus B X2
Lead-In Verse
Verse 3
Chorus A
Chorus B* X2
____________________________________________________________________________________________________
(/)=Slide Up (\)=Slide Down (h)=Hammer On (p)=Pull Off (b)=Bend (r)=Release
(v)=Vibrato (~)=Let Ring (PM)...=Palm Mute (x)=No Sound/Muted Sound
(Note)=Ghost Note








Guitar Tab Creator is intended to store guitar tab created through the tool. It currently does not support in-line text editing. Any text you place in here will be lost. If you need to comment on your tab, please use the "Tab Notes" section located below.