Beethoven- Moonlight Sonata 3rd Movement

(/) Slide Up  (\) Slide Down  (h) Hammer On  (p) Pull Off  (b) Bend (r) Release (v) Vibrato

Stave 1:

E|----------------------------------------------------9-------9-12-----9-12--16-16-
B|---------------------------------------------------------------------------------
G|--------------------------------9------9-13--6-9-13----9-13-------13-------------
D|---------------------------------------------------------------------------------
A|--------11-------11-16--7-11-16---7-16-------------------------------------------
E|-4-9-12-----9-12-----------------------------------------------------------------

Stave 2:

E|----------------------------------
B|----------------------------------
G|----------------------------------
D|--------6-------6-10-----6-10-13--
A|----------------------------------
E|-4-8-11----8-11-------11----------

http://www.guitartabcreator.com
Guitar Tab Creator is intended to store guitar tab created through the tool. It currently does not support in-line text editing. Any text you place in here will be lost. If you need to comment on your tab, please use the "Tab Notes" section located below.