Wild world personal intro - guitar 1&2

(/) Slide Up  (\) Slide Down  (h) Hammer On  (p) Pull Off  (b) Bend (r) Release (v) Vibrato


E|-------------------------7b8r7---------------------------------7-----10b12--
B|--10--13b15r13--12----8---------8/10---------8--------------9-----9---------
G|------------------------------------------------10--9b10r9------------------
D|----------------------------------------7/9---------------------------------
A|----------------------------------------------------------------------------
E|----------------------------------------------------------------------------



E|------12b13r12--10-------------------------------------------------------------12------14b16--
B|--13------------------12--15b17r15--12--13-------10b12r10--9b10r9----------12------12---------
G|----------------------------------------------9----------------------9/13---------------------
D|----------------------------------------------------------------------------------------------
A|----------------------------------------------------------------------------------------------
E|----------------------------------------------------------------------------------------------
http://www.guitartabcreator.com
Guitar Tab Creator is intended to store guitar tab created through the tool. It currently does not support in-line text editing. Any text you place in here will be lost. If you need to comment on your tab, please use the "Tab Notes" section located below.