wild world personal 2 guitar interlude

(/) Slide Up  (\) Slide Down  (h) Hammer On  (p) Pull Off  (b) Bend (r) Release (v) Vibrato
E|----------5------------------
B|-------5-----8p5-------------
G|--7b9-------------5----------
D|---------------------7--6----
A|-----------------------------
E|-----------------------------



E|----------------------------------------------------------------------------------------------------
B|----------------------------------------------------------------------------------------------------
G|--5--5--5--5--5--5----5--5/7--5--4----4b5r4--0--2----2--2--2--2----2--2h4--2--1-------1--2/4--------
D|---------------------------------------------------------------------------------2------------------
A|----------------------------------------------------------------------------------------------------
E|----------------------------------------------------------------------------------------------------



E|--------------------------------------------------------------------------------------------
B|--5--5--5--5----6--5h6p5----------------------------------3---------------------------3--5--
G|--------------------------7----7b9r7--4--5----5--5--5--5-----5--4-------4--4--4--4h5--------
D|-------------------------------------------------------------------1------------------------
A|--------------------------------------------------------------------------------------------
E|--------------------------------------------------------------------------------------------
http://www.guitartabcreator.com
Guitar Tab Creator is intended to store guitar tab created through the tool. It currently does not support in-line text editing. Any text you place in here will be lost. If you need to comment on your tab, please use the "Tab Notes" section located below.