wild world - licks 2

(/) Slide Up  (\) Slide Down  (h) Hammer On  (p) Pull Off  (b) Bend (r) Release (v) Vibrato


E|------------------------
B|----------5--8--6-------
G|-------5----------------
D|--5/7-------------------
A|------------------------
E|------------------------



E|------------------------------------------------------
B|------------------------------------------------------
G|-------------------------------9r7p5------------------
D|--------------------------------------7--5------------
A|-------0--3-------------------------------------------
E|--1h3-------------------------------------------------



E|--1p0-------------------------------------------------------------------4----
B|-------3--1--0--------------------------------------------------1------------
G|----------------2--0---------------------------------------0h2-----2/4-------
D|----------------------3--0----2----3--------------------3--------------------
A|-----------------------------------------------------------------------------
E|-----------------------------------------------------------------------------



E|---------------------------------------
B|---------------------------------------
G|--0h2--0-------------------------------
D|----------3--2--0----------------------
A|-------------------3--2--0--0h2--------
E|---------------------------------------
http://www.guitartabcreator.com
Guitar Tab Creator is intended to store guitar tab created through the tool. It currently does not support in-line text editing. Any text you place in here will be lost. If you need to comment on your tab, please use the "Tab Notes" section located below.