wild world licks

(/) Slide Up  (\) Slide Down  (h) Hammer On  (p) Pull Off  (b) Bend (r) Release (v) Vibrato


E|--1----0--------------------------5----3----1----0----
B|--1----0----3----1----------------6----5----3----1----
G|--2----0----4----0----------------5----4----2----0----
D|--3----2----3----2----------------7----5----3----2----
A|------------5----3------------------------------------
E|------------------------------------------------------



E|---------------------------------------------------------------------------
B|---------------------------------------------------------------------------
G|--2p0----------------------------------------------------------------------
D|-------3--2--0-------------------------------------------------------------
A|----------------3--2--0--2h3--2--------------------------------------------
E|---------------------------------------------------------------------------



E|------------------------------------------------------------------------------
B|------------------------------------------------------------------------------
G|-------------5--7b9r7--5-----------------0h2--0-------------------------------
D|-------5--7---------------7---------5------------3--2--3----------------------
A|--5/7------------------------3------------------------------------------------
E|------------------------------------------------------------------------------



E|--------------------------------------------------------------
B|--10r8--6\5---------------------------------------------------
G|-------------7--5\4-----4--5p4--------------------------------
D|---------------------7------------------------3p2p0-----------
A|-----------------------------------------------------3/5------
E|--------------------------------------------------------------



E|----1p0------------------------------------------------------4--------------
B|---------3--1p0--------------------------------------1----------------------
G|-----------------2--0---------------------------0h2-----2/4-----------------
D|-----------------------3--0----2----3--------3------------------------------
A|----------------------------------------------------------------------------
E|----------------------------------------------------------------------------
http://www.guitartabcreator.com
Guitar Tab Creator is intended to store guitar tab created through the tool. It currently does not support in-line text editing. Any text you place in here will be lost. If you need to comment on your tab, please use the "Tab Notes" section located below.