Lemon Tree - bridge's riff

(/) Slide Up  (\) Slide Down  (h) Hammer On  (p) Pull Off  (b) Bend (r) Release (v) Vibrato


E|--------------------------2-----2-----2-----------0-----0-----------------------2-----2-----2--
B|--------------------------0-----0-----0-----------0-----0-----------------------1-----1-----1--
G|--------------------------2-----2-----2--0--------0-----0-----------------------2-----2-----2--
D|--------------------------1-----1-----1-----1--2-----------------------------------0-----------
A|-----0--2--3--2--0--1--2-----------2-----------------2-----2--1--2--3--1--2--0-----------0-----
E|--3--------------------------2-----------------------------------------------------------------



E|-----2-----3-----------------2--------
B|-----1-----0-----------------0--------
G|-----2-----0-----------------2--------
D|--0--------0--4--2--1--------1--------
A|-----------2-----------3--2-----------
E|--------3-----------------------------
http://www.guitartabcreator.com
Guitar Tab Creator is intended to store guitar tab created through the tool. It currently does not support in-line text editing. Any text you place in here will be lost. If you need to comment on your tab, please use the "Tab Notes" section located below.