Late For The Sky - Solo

(/) Slide Up  (\) Slide Down  (h) Hammer On  (p) Pull Off  (b) Bend (r) Release (v) Vibrato
E|-----------------------------------------------------------------------
B|------------------------------8-10p8-8--6h8p6\5--8b10r8p6-6\5----------
G|---5-7-7b9--r7-7p5-7-5-4--7/9----------------------------------7h9-5---
D|-5---------------------------------------------------------------------
A|-----------------------------------------------------------------------
E|-----------------------------------------------------------------------



E|-----------------------------------------------------------------------8h10p8--8--8--------
B|--------------5b6r5----6b8/10r10----6----p5----------5----------8--10----------------8h10--
G|--7\9p7--7-------------------------------------5--7-----7----9-----------------------------
D|-------------------------------------------------------------------------------------------
A|-------------------------------------------------------------------------------------------
E|-------------------------------------------------------------------------------------------



E|----------------------------------------------------------------------------------
B|--8--8------6p5--6p5--6-------------------------------------5h8--5----------------
G|------------7-5--7-5--5---------------------------5--7p5------------7p5--------5--
D|----------------------5h7------------5h7--5----7-------------------------7--5--5--
A|-----------------------------7p5--7-----------------------------------------------
E|----------------------------------------------------------------------------------



E|--------8--7--5-----------------------
B|-----5--8--8--6-----------------------
G|-----5--5--7--5-----------------------
D|--5-----------------------------------
A|--------------------------------------
E|--------------------------------------
http://www.guitartabcreator.com
Guitar Tab Creator is intended to store guitar tab created through the tool. It currently does not support in-line text editing. Any text you place in here will be lost. If you need to comment on your tab, please use the "Tab Notes" section located below.