Late For The Sky - Outro

(/) Slide Up  (\) Slide Down  (h) Hammer On  (p) Pull Off  (b) Bend (r) Release (v) Vibrato


E|------------------------------------------------8-6r5h6--5--------
B|-1---4-3---1--3-3---8r6h8--5h6r5h6r5h6--8r6h8--------------8-6----
G|-0---5-3---0--5-3-------------------------------------------------
D|-2---5-3---2--5-3-------------------------------------------------
A|-3---3-3---3--3-3-------------------------------------------------
E|------------------------------------------------------------------



E|-------------------------------------------------
B|-5h6r5-------------------------------------------
G|--------------3/5--3-2-0-------------------5h7-5-
D|-------5-----------------3-2r0---------5h7-------
A|-------------------------------3-----------------
E|-------------------------------------------------
http://www.guitartabcreator.com
Guitar Tab Creator is intended to store guitar tab created through the tool. It currently does not support in-line text editing. Any text you place in here will be lost. If you need to comment on your tab, please use the "Tab Notes" section located below.