Late For The Sky - Intro

[code]
(/) Slide Up (\) Slide Down (h) Hammer On (p) Pull Off (b) Bend (r) Release (v) Vibrato


E|-------12--10-|--7-----|-8-h10p8-8-7-|----------|-------------------|---------------
B|--------------|--------|-------------|-8--------|-8h10p8-10---------|---------8-----
G|-10/12-----10-|--7-----|-10----------|---7h9----|-----------9\7-5-5-|-5---7/9---7\--
D|--------------|--------|-------------|----------|-------------------|---------------
A|--------------|--------|-------------|----------|-------------------|---------------
E|--------------|--------|-------------|----------|-------------------|---------------



E|-------------|------------------
B|-------------|------------------
G|-5-----------|-7/9-5------------
D|----5h7------|--------7p5-------
A|-------------|------------7-----
E|-------------|--------------8---
[/code]
[url]http://www.guitartabcreator.com[/url]
Guitar Tab Creator is intended to store guitar tab created through the tool. It currently does not support in-line text editing. Any text you place in here will be lost. If you need to comment on your tab, please use the "Tab Notes" section located below.