Late For The Sky - The feeling we've known...

(/) Slide Up  (\) Slide Down  (h) Hammer On  (p) Pull Off  (b) Bend (r) Release (v) Vibrato
E|--3----5----7----8----8----8----5----10-12--------13--------8--10----
B|--3----3----8----5----6----8----6-----------13----13--------8--10----
G|--4----5----7----5----7----9----5----10/12--12----12b14r12--9--10----
D|--5----5----9-------------------7------------------------------0-----
A|---------------------------------------------------------------------
E|---------------------------------------------------------------------



E|--8---8-----7----7h8r7-------8------8--------8----10----8----8-----8-----5/7--7-----
B|--10--8h10--8----8------8----8-h10-----------8----8-----8----10----8----------------
G|--9--------------7-----------10--------------9----10----9----10----9-----5-7--7-----
D|-------------------------------------------------------------------10---------------
A|------------------------------------------------------------------------------------
E|------------------------------------------------------------------------------------
http://www.guitartabcreator.com
Guitar Tab Creator is intended to store guitar tab created through the tool. It currently does not support in-line text editing. Any text you place in here will be lost. If you need to comment on your tab, please use the "Tab Notes" section located below.