50 special - fin.

(/) Slide Up  (\) Slide Down  (h) Hammer On  (p) Pull Off  (b) Bend (r) Release (v) Vibrato


E|--12--------------12------------12----------------------7----------------------------------------
B|------15--------------15------------12---------------------8-------------------------------------
G|----------12--------------12------------12--14b16r14----------7h9--7----4/5--4--2--0-------------
D|--------------------------------------------------------------------------------------2/4--2--0--
A|-------------------------------------------------------------------------------------------------
E|-------------------------------------------------------------------------------------------------



E|--12------------12------------12----------------------7--------------------------------------------------
B|------15------------15------------12---------------------8-----------------------------------------------
G|----------12------------12------------12--14b16r14----------7h9--7----4/5--4--2--0-----------------------
D|------------------------------------------------------------------------------------2/4--2p0-------------
A|----------------------------------------------------------------------------------------------1p0--------
E|---------------------------------------------------------------------------------------------------2--3--
http://www.guitartabcreator.com
Guitar Tab Creator is intended to store guitar tab created through the tool. It currently does not support in-line text editing. Any text you place in here will be lost. If you need to comment on your tab, please use the "Tab Notes" section located below.