Who am I

(/) Slide Up  (\) Slide Down  (h) Hammer On  (p) Pull Off  (b) Bend (r) Release (v) Vibrato


E|--------------
B|--------------
G|--------------
D|--------------
A|--9-----6-----
E|-----9-----7--



E|------------------------------------
B|------------------------------------
G|------------------------------------
D|------------------------------------
A|--9----11--9------------6--8--9-----
E|--------------9--11--9-----------7--



E|-------------------------------------------------------------------------
B|-------------------------------------------------------------------------
G|-------------------------------------------------------------------------
D|-------------------------------------------------------------------------
A|-------------------------------------------------------------------------
E|--6--7----6--7------9--6--7----9--6--7----9--6--7----6--6--7----6--6--7--
http://www.guitartabcreator.com
Guitar Tab Creator is intended to store guitar tab created through the tool. It currently does not support in-line text editing. Any text you place in here will be lost. If you need to comment on your tab, please use the "Tab Notes" section located below.