Todays Not the Last

(/) Slide Up  (\) Slide Down  (h) Hammer On  (p) Pull Off  (b) Bend (r) Release (v) Vibrato


E|--------------------------------
B|--------------------------------
G|--------------------------------
D|--------------------------------
A|--11----------------------------
E|----------6--2--4----6--2--4----



E|--------------------------------
B|--------------------------------
G|--------------------------------
D|--------------------------------
A|--------------------------------
E|--6--6----6--2--2----2--4----4--



E|----------------
B|----------------
G|----------------
D|----------------
A|----------2-----
E|--2----4-----6--
http://www.guitartabcreator.com
Guitar Tab Creator is intended to store guitar tab created through the tool. It currently does not support in-line text editing. Any text you place in here will be lost. If you need to comment on your tab, please use the "Tab Notes" section located below.