Number one Angel

(/) Slide Up  (\) Slide Down  (h) Hammer On  (p) Pull Off  (b) Bend (r) Release (v) Vibrato


E|-----------------------------------------------------------------------------
B|-----------------------------------------------------------------------------
G|-----------------------------------------------------------------------------
D|-----------------------------------------------------------------------------
A|-----------------------2--3--------2--3-----------------2--3--------2--3-----
E|--5--5--5--5--5--5--0--------3--0--------5--3--5--3--0--------3--0--------5--



E|--------------------------------------------------------
B|--------------------------------------------------------
G|--------------------------------------------------------
D|--------------------------------------------------------
A|--------2--3--------5--3--------2--3--------------------
E|--0--0--------0--0--------0--0--------3--3--3--3--3--3--



E|--------------------------------------------
B|--------------------------------------------
G|--------------------------------------------
D|--------------------------------------------
A|--------------------------------------------
E|--0--1--0--3--5--3--1--0--1--0--3--5--3--1--



E|---------------------------------------------
B|---------------------------------------------
G|---------------------------------------------
D|--0--0------------------0--0-----------------
A|--------3------3--3--3-----------------------
E|------------------------------2--3--3--2-----



E|-----------------------------------
B|-----------------------------------
G|-----------------------------------
D|-----------------------------------
A|-----------------------------------
E|--0--0--0------0--0--0----3--5--3--



E|----------------------------------------------------------------------------
B|----------------------------------------------------------------------------
G|----------------------------------------------------------------------------
D|----------------------------------------------------------------------------
A|----------------------------------------------------------------------------
E|--0--0--0----0--0--0----3--5--3--2--3--2--0----------2--3------3--2------0--
http://www.guitartabcreator.com
Guitar Tab Creator is intended to store guitar tab created through the tool. It currently does not support in-line text editing. Any text you place in here will be lost. If you need to comment on your tab, please use the "Tab Notes" section located below.