Let them fall

(/) Slide Up  (\) Slide Down  (h) Hammer On  (p) Pull Off  (b) Bend (r) Release (v) Vibrato


E|------------
B|------------
G|------------
D|------------
A|-------6----
E|--0---------



E|----------------------------------------------------------
B|----------------------------------------------------------
G|----------------------------------------------------------
D|--------0----------0--------0--------0--------------------
A|----------------------------------------------------------
E|--0--0-------0--0-----0--0-----0--0-----0--0--6--0--0--6--



E|-----------------------------
B|-----------------------------
G|-----------------------------
D|-----------------------------
A|-----------------------------
E|--0--6--0--5--0--6--0--5--3--



E|-------------------------
B|-------------------------
G|-------------------------
D|-------------------------
A|-------------------------
E|--0----3--5--6--5--3--0--



E|-----------------
B|-----------------
G|-----------------
D|-----------------
A|-----------------
E|--0--6--0--6--3--
http://www.guitartabcreator.com
Guitar Tab Creator is intended to store guitar tab created through the tool. It currently does not support in-line text editing. Any text you place in here will be lost. If you need to comment on your tab, please use the "Tab Notes" section located below.