k

(/) Slide Up  (\) Slide Down  (h) Hammer On  (p) Pull Off  (b) Bend (r) Release (v) Vibrato


E|------------------------------
B|--10--9--7----10--9--12--7----
G|------------------------------
D|------------------------------
A|------------------------------
E|------------------------------



E|-------------------------
B|-------------------------
G|-------------------------
D|--3--2--0----3--2--5--0--
A|--3--2--0----3--2--5--0--
E|--3--2--0----3--2--5--0--
http://www.guitartabcreator.com
Guitar Tab Creator is intended to store guitar tab created through the tool. It currently does not support in-line text editing. Any text you place in here will be lost. If you need to comment on your tab, please use the "Tab Notes" section located below.