Ten Million Slaves - Otis Taylor

(/) Slide Up  (\) Slide Down  (h) Hammer On  (p) Pull Off  (b) Bend (r) Release (v) Vibrato


E|--3p1-----------------------3p1-----------------------1----1--1--1-------------------
B|-------3--3p1--------------------3--3p1---------------1h3--3--3--3p1-----------------
G|---------------3-------0-----------------3-------0--------------------3--0-----0-----
D|------------------0h3-----------------------0h3-----------------------------3--------
A|-------------------------------------------------------------------------------------
E|-------------------------------------------------------------------------------------



E|--3--x--3---------------3--x--3---------------1--x--1-------------3--x--3--
B|--3--x--3-------1-------3--x--3-------1-------1--x--1-------------3--x--3--
G|--0--x--0--0h3-----3p0--0--x--0--0h3-----3p0--2--x--2-----2p0-----0--x--0--
D|----------------------------------------------3--x--3--3-------3-----------
A|---------------------------------------------------------------------------
E|---------------------------------------------------------------------------
http://www.guitartabcreator.com
Guitar Tab Creator is intended to store guitar tab created through the tool. It currently does not support in-line text editing. Any text you place in here will be lost. If you need to comment on your tab, please use the "Tab Notes" section located below.