First song

(/) Slide Up  (\) Slide Down  (h) Hammer On  (p) Pull Off  (b) Bend (r) Release (v) Vibrato
E|--------------------------------------------
B|--------------------------------------------
G|--------------------------------------------
D|-----4-----4--4-----4-----4-----4--4-----4--
A|--4-----4--------4-----4-----4--------4-----
E|--------------------------------------------



E|--------------------------------------------
B|--------------------------------------------
G|--------------------------------------------
D|-----9-----9--9-----9-----7-----7--7-----5--
A|--4-----4--------4-----4-----4--------4-----
E|--------------------------------------------



E|--------------------------------------------
B|--------------------------------------------
G|--------------------------------------------
D|--------------------------------------------
A|-----4-----4--4-----4-----4-----4--4-----4--
E|--4-----4--------4-----4-----4--------4-----



E|--------------------------------------------
B|--------------------------------------------
G|--------------------------------------------
D|--------------------------------------------
A|-----6-----6--6-----6-----8-----8--8-----8--
E|--4-----4--------4-----4-----4--------4-----



E|--
B|--
G|--
D|--
A|--
E|--
http://www.guitartabcreator.com
Guitar Tab Creator is intended to store guitar tab created through the tool. It currently does not support in-line text editing. Any text you place in here will be lost. If you need to comment on your tab, please use the "Tab Notes" section located below.