BAMBARAMBAMBAAM

(/) Slide Up  (\) Slide Down  (h) Hammer On  (p) Pull Off  (b) Bend (r) Release (v) Vibrato


E|-------------------
B|-------------------
G|-----3r2-----------
D|--2-------2--------
A|-------------2-----
E|----------------2--



E|-------------------
B|-------------------
G|-----3r2--------5--
D|--2-------2--------
A|-------------2-----
E|-------------------



E|-----------------
B|--7--4--2--------
G|-----------2-----
D|--------------4--
A|-----------------
E|-----------------



E|------------------
B|------------------
G|------------------
D|--2--4--6--4--2h4p
A|------------------
E|------------------



E|--
B|--
G|--
D|--
A|--
E|--
http://www.guitartabcreator.com
Guitar Tab Creator is intended to store guitar tab created through the tool. It currently does not support in-line text editing. Any text you place in here will be lost. If you need to comment on your tab, please use the "Tab Notes" section located below.