IU - Really Hate Her

(/) Slide Up  (\) Slide Down  (h) Hammer On  (p) Pull Off  (b) Bend (r) Release (v) Vibrato

E|-----------3h5-----------3h5--3-----------3h5-----------3h5--3--
B|-----------3-------------3----3-----------3-------------3----3--
G|--------3-------------3-------3--------3-------------3-------3--
D|-----3-------------3----------------3-------------3-------------
A|---------------------------------3-------------3----------------
E|--3-------------3-----------------------------------------------



E|-----------3--1--------------1h3--1--3--
B|-----------1--1-----------1-------1-----
G|--------0--------0-----2----------2-----
D|-----3--------------0-------------0-----
A|--0-------------------------------------
E|----------------------------------------
http://www.guitartabcreator.com
Guitar Tab Creator is intended to store guitar tab created through the tool. It currently does not support in-line text editing. Any text you place in here will be lost. If you need to comment on your tab, please use the "Tab Notes" section located below.