G-Dragon - Geu Saekki

(/) Slide Up  (\) Slide Down  (h) Hammer On  (p) Pull Off  (b) Bend (r) Release (v) Vibrato


E|-----------2-----------2-----------0-----------0-----------9-----------9-----------------------5--
B|-----3--3--------3--3--------3--3--------3--3--------7--7--------7--7--------5--5--------5--5-----
G|-----4--4--------4--4--------3--3--------3--3--------7--7--------7--7--------5--5--------5--5-----
D|-----4--4--------4--4--------2--2--------2--2--------7--7--------7--7--------5--5--------5--5-----
A|--------------------------------------------------------------------------------------5-----5-----
E|--3-----3-----3-----3-----2-----2-----2-----2-----7-----7-----7-----7-----5-----5--5--------------



E|-----------2-----------2-----------0-----------0-----------9-----------9-----------------------5--
B|-----3--3--------3--3--------3--3--------3--3--------7--7--------7--7--------5--5--------5--5-----
G|-----4--4--------4--4--------3--3--------3--3--------7--7--------7--7--------5--5--------5--5-----
D|-----4--4--------4--4--------2--2--------2--2--------7--7--------7--7--------5--5--------5--5-----
A|--------------------------------------------------------------------------------------5-----5-----
E|--3-----3-----3-----3-----2-----2-----2-----2-----7-----7-----7-----7-----5-----5--5--------------
http://www.guitartabcreator.com
Guitar Tab Creator is intended to store guitar tab created through the tool. It currently does not support in-line text editing. Any text you place in here will be lost. If you need to comment on your tab, please use the "Tab Notes" section located below.