aim to please

(/) Slide Up  (\) Slide Down  (h) Hammer On  (p) Pull Off  (b) Bend (r) Release (v) Vibrato


E|--12--11--9--------9----------------------------------------
B|---------------12-----12----------9----12-----12-----12-----
G|------------------------------11-----------9------9------9--
D|------------------------------------------------------------
A|------------------------------------------------------------
E|------------------------------------------------------------



E|--12------9-------11--
B|--12------10------12--
G|--13------9-------11--
D|----------------------
A|----------------------
E|----------------------



E|--9---11----12----9-----12--
B|--9---12----13----10----13--
G|--9---11----12----9-----12--
D|--11--13----14----11----13--
A|----------------------------
E|----------------------------



E|----------------7-------------------------------------
B|-------------9-----9----------------------------------
G|------9---------------9--9--11b13--11--9--8--8--9/11--
D|--11-----11-------------------------------------------
A|------------------------------------------------------
E|------------------------------------------------------
http://www.guitartabcreator.com
Guitar Tab Creator is intended to store guitar tab created through the tool. It currently does not support in-line text editing. Any text you place in here will be lost. If you need to comment on your tab, please use the "Tab Notes" section located below.