CHEAP DAY RETURN

(/) Slide Up  (\) Slide Down  (h) Hammer On  (p) Pull Off  (b) Bend (r) Release (v) Vibrato


E|--5-----5---------5---------5---------5---------5-----5-----5--------5--------5--------5--------
B|-----------10--------10--------10--------10--------------------8--------8--------8--------8-----
G|-----9---------9---------9---------9---------9-----9-----9--------9--------9--------9--------9--
D|------------------------------------------------------------------------------------------------
A|------------------------------------------------------------------------------------------------
E|------------------------------------------------------------------------------------------------



E|--5-----5-----5---------5---------5---------5---------5-----5-----5--------5--------5--------
B|-----------------10--------10--------10--------10--------------------8--------8--------8-----
G|-----9-----9---------9---------9---------9---------9-----9-----9--------9--------9--------9--
D|---------------------------------------------------------------------------------------------
A|---------------------------------------------------------------------------------------------
E|---------------------------------------------------------------------------------------------



E|--5--------5-----------5--------5--------5--------5-----------------5--------5--------5-----
B|-----8--------------5--------5--------5--------5--------5--------5--------5--------5--------
G|--------9-----9--9--------7--------6--------7--------9-----7--9--------7--------6-----------
D|--------------------------------------------------------------------------------------------
A|--------------------------------------------------------------------------------------------
E|--------------------------------------------------------------------------------------------



E|--------5-----------5--------------------------------------------------------------------------
B|-----5--------5-----5--------------------------------------------------------------------------
G|--7--------9-----7--5--------------5--5--5--5--5--5--5--5--------------5--5--5--5--5--5--5--5--
D|--------------------7--------5--7-----9--7--9--7--9--7--9--------5--7-----9--7--9--7--9--7--9--
A|-----------------------7--8--------------------------------7--8--------------------------------
E|-----------------------------------------------------------------------------------------------



E|--------------------------------------------------------
B|--------------------------------------------------------
G|--------------5-----------------------------------------
D|--------5--7-----9--7--9--7--9--7--9--------7--5--------
A|--7--8--------------------------------7--9--------9--7--
E|--------------------------------------------------------
http://www.guitartabcreator.com
Guitar Tab Creator is intended to store guitar tab created through the tool. It currently does not support in-line text editing. Any text you place in here will be lost. If you need to comment on your tab, please use the "Tab Notes" section located below.