layla

(/) Slide Up  (\) Slide Down  (h) Hammer On  (p) Pull Off  (b) Bend (r) Release (v) Vibrato
E|--------------------------------3--------3-----------------------------------3--------3-----
B|--0h3---------3-----5--3--1--0-----3--0-----5--0h3---------3-----5--3--1--0-----3--0-----5--
G|-------0h3p0-----0--7--5--3--------5--------7-------0h3p0-----0--7--5--3--------5--------7--
D|--------------------------------------------------------------------------------------------
A|--------------------------------------------------------------------------------------------
E|--------------------------------------------------------------------------------------------



E|-----------------------------------------------------
B|-----------------------------------------------------
G|-----------------------------------------------------
D|-----------------------------------------------------
A|--10h13------------13---------------------13---------
E|---------10h13p10------10--13b15--13--12------10-----



E|--------------------------------------------------
B|--------------------------------------------------
G|--------------------------------------------------
D|--------------------------------------------------
A|--10h13------------13---------------------13------
E|---------10h13p10------10--15b18--15--12------10--
http://www.guitartabcreator.com
Guitar Tab Creator is intended to store guitar tab created through the tool. It currently does not support in-line text editing. Any text you place in here will be lost. If you need to comment on your tab, please use the "Tab Notes" section located below.