Domestic Terrorism

(/) Slide Up  (\) Slide Down  (h) Hammer On  (p) Pull Off  (b) Bend (r) Release (v) Vibrato
E|---------------------------------------------------------------------------------------------
B|---------------------------------------------------------------------------------------------
G|---------------------------------------------------------------------------------------------
D|-------------------------------------------------------------------5-6-7---------------------
A|-------------------------5h6-------7p6-------5h7-------------------5-6-7-7p6-------6p5-------
E|-0-0-0-0-0-0-0-0-0-0-0-0-----0-0-0-----0-0-0-----0-0-0-0-0-0-0-0-0-5-6-7-----0-0-0-----0-0-0-



E|-------------------------
B|-------------------------
G|-------------------------
D|----------------1--2--3--
A|--5p4-----------1--2--3--
E|-------0--0--0--1--2--3--
http://www.guitartabcreator.com
Guitar Tab Creator is intended to store guitar tab created through the tool. It currently does not support in-line text editing. Any text you place in here will be lost. If you need to comment on your tab, please use the "Tab Notes" section located below.