Rock of My Salvation - Eb

(/) Slide Up  (\) Slide Down  (h) Hammer On  (p) Pull Off  (b) Bend (r) Release (v) Vibrato


E|-----------------------------------------------------------------------------------
B|-----------------------------------------------------------------------------------
G|-----------------------------------------------------------------------------------
D|--5--3--1-----------0--1--3--5--3--1--0-----------5--3--1--0-----------0--1--3-----
A|-----------3--1--3-----------------------3--1--3--------------3--1--3--------------
E|-----------------------------------------------------------------------------------



E|--------------------------------------------------------------------------------------
B|--------------------------------------------------------------------------------------
G|-----------------------0--3--5--5--3--0--3--5--0--0--3--5--5--3--5--0--0--3--5--5--3--
D|--5--3--1--0--------------------------------------------------------------------------
A|--------------3--1--3-----------------------------------------------------------------
E|--------------------------------------------------------------------------------------



E|--------------------------------------------------------------
B|-----3--3-----------------------------------------------------
G|--0--------5--------------------0--3--0-----------------------
D|--------------3--3--1--3--1--3-----------3--3--1--3--1--0-----
A|-----------------------------------------------------------3--
E|--------------------------------------------------------------
http://www.guitartabcreator.com
Guitar Tab Creator is intended to store guitar tab created through the tool. It currently does not support in-line text editing. Any text you place in here will be lost. If you need to comment on your tab, please use the "Tab Notes" section located below.