Let the Redeemed of the Lord Say So - C

(/) Slide Up  (\) Slide Down  (h) Hammer On  (p) Pull Off  (b) Bend (r) Release (v) Vibrato


E|--------------------------------------------------------------------------------------
B|--------------------------------------------------------------------------------------
G|--0--------0-----------2--0--0--------0-----------------0--------0-----------2--5-----
D|-----2--------2-----3-----------2--------2-----3--2--0-----2--------2-----3-----------
A|--------3--------3-----------------3--------3-----------------3--------3--------------
E|--------------------------------------------------------------------------------------



E|-----------------------------
B|-----------------------------
G|--4--2--0--0--0--4--2--4--5--
D|-----------------------------
A|-----------------------------
E|-----------------------------
http://www.guitartabcreator.com
Guitar Tab Creator is intended to store guitar tab created through the tool. It currently does not support in-line text editing. Any text you place in here will be lost. If you need to comment on your tab, please use the "Tab Notes" section located below.