Soaiwehgf

(/) Slide Up  (\) Slide Down  (h) Hammer On  (p) Pull Off  (b) Bend (r) Release (v) Vibrato


(/) Slide Up (\) Slide Down (h) Hammer On (p) Pull Off (b) Bend (r) Release (v) Vibrato


E|-----------------------------
B|-----------------------------
G|-----------------------------
D|--------6--8--8--------------
A|--4--6-----------6--8--6-----
E|--------------------------7--



E|--------------------------------------
B|--------------------------------------
G|--------------------------------------
D|--------------------------------------
A|--------4--6--6--4--6--4--2--4--1--2--
E|--2--4--------------------------------



E|--------------------------
B|--------------------------
G|--------------------------
D|--------------------------
A|--6-----6--7-----6--7--7--
E|-----7--------9-----------



E|--------------------------------------------
B|--------------------------------------------
G|--------------------------------------------
D|--------------------------------------------
A|--6--------6--7--7-----6--7-----7--9--9-----
E|-----7--9-----------7--------7-----------7--



E|--------------------------------------------------------
B|--------------------------------------------------------
G|--------------------------------------------------------
D|--------------------------------------------------------
A|-----------------------4--------------------------------
E|--4--6--4--2--4--2--0-----4--6--4--2--4--2--0--0--0--0--



E|-----------------------------------------------
B|-----------------------------------------------
G|-----------------------------------------------
D|-----------------------------------------------
A|-----------5--6--7--7--------------------------
E|--0--0--0--------------4--4--4--4--4--4--4--4--
http://www.guitartabcreator.com
Guitar Tab Creator is intended to store guitar tab created through the tool. It currently does not support in-line text editing. Any text you place in here will be lost. If you need to comment on your tab, please use the "Tab Notes" section located below.