We Wish You A Merry Christmas


A||---------------|-------------------|-----------------|-------------------|
E||---------------|--1----1-----1--0--|-----------------|----------------1--|
C||----------0----|-------------------|--2----2----2----|-------------------|
G||---------------|----------0--------|-----------------|--0----0--2--0-----|



-----------------|-------------------|------------------|-----------------|
--0--------------|-------------------|--1---------------|------------0----|
-------0----0----|-------------------|-------2----0--0--|--2--------------|
-----------------|--2----2--3--2--0--|------------------|-------0---------|



----------------|-----------------|----------------|-----------------|
--1-------------|--1----1----1----|--0--------0----|--1----0---------|
-----------0----|-----------------|----------------|------------2----|
----------------|-----------------|----------------|-----------------|



----------------|-----------------|--3---------------|-----------------|
----------------|------------1----|------------------|------------0----|
--0-------------|-----------------|-------0----0--0--|--2--------------|
-----------0----|--2----0---------|------------------|-------0---------|



---------------||
--1------------||
---------------||
---------------||
Guitar Tab Creator is intended to store guitar tab created through the tool. It currently does not support in-line text editing. Any text you place in here will be lost. If you need to comment on your tab, please use the "Tab Notes" section located below.