Let It Be

A|----------0-------3-5-7-7-7-5-5-3-3-7-7-8-7-7-5-7-5-3-------0-3-----3-5-7-7-7-5-5-3-3-7-7-8-7-7-5-7-
E|------------0---------------------------------------------------------------------------------------
C|----------------------------------------------------------------------------------------------------
G|--0-0-0-0-----0-0-------------------------------------0-0-0-----0-0---------------------------------

A|5-5-3-----------0-------------------7-7-8-7-7-5-7-5-5-3---
E|------0-----0-----------0-------0-----------------------12
C|--------2-0---------------2-0-2---0---------------------12
G|--------------0---0-0-0---------------------------------12
Guitar Tab Creator is intended to store guitar tab created through the tool. It currently does not support in-line text editing. Any text you place in here will be lost. If you need to comment on your tab, please use the "Tab Notes" section located below.