Fur Elise

A|--7-6-7-6-7---5-3-0-----0-2-----2-3--7-6-7-6-7---5-3-0-----0-2---3-2-0-7-6-7-6-7---5-3-0-----
E|----------------------0-----0------0---------------------0-----0---------------------------0-
C|--------------------0----------------------------------0---------------------------------0---
G|------------4-----------------1----------------4---------------------------------4-----------

A|0-2-----2-3--7-6-7-6-7---5-3-0-----0-2---3-2-0-2-3-5-7---8-7-5---5-3-2---7-7-?-6-7-6-7-5-7-6-7---4-3
E|----0------0---------------------0-----0-----------------------0-------0----------------------------
C|-------------------------------0--------------------------------------------------------------------
G|------1----------------4-------------------------------0---------------------------------------4----

A|-0-----0-2-----2-3---7-6-7-6-7---4-3-0-----0-2-0-3-2-0-2-3-5-7-6-7-6-7---5-3-0-------0-2-----2-3---7
E|-----0-----0-------0---------------------0-----------------------------------------0-----0-------0--
C|---0-----------------------------------0-----------------------------------------0------------------
G|-------------1-----------------4-----------------------------------------4-----------------1--------

A|--7-6-7---5-3-0-----0-2---3-2-0-7-6-7-6-7---5-3-0-----0-2-----2-3---7-6-7-6-7---5-3-0-----0-2---3-2-
E|------------------0-----0---------------------------0-----0-------0---------------------0-----0-----
C|----------------0---------------------------------0-----------------------------------0-------------
G|--------4---------------------------------4-----------------1----------------4----------------------

A|0-6-2-3-5-7---8-7-5---5-3-2---7-7-?-6-7-6-7-5-7-6-7---4-3-0-----0-2-----2-3---7-6-7-6-7---4-3-0-----
E|--------------------0-------0---------------------------------0-----0-------0---------------------0-
C|------------------------------------------------------------0-----------------------------------0---
G|------------0---------------------------------------4-----------------1-----------------4-----------

A|0-2-0-3-2-0-2-3-0-
E|------------------
C|------------------
G|------------------
Guitar Tab Creator is intended to store guitar tab created through the tool. It currently does not support in-line text editing. Any text you place in here will be lost. If you need to comment on your tab, please use the "Tab Notes" section located below.