the cave v2

A|--------------2------------------------2---------|
E|-----4--2--0--------0-----0-----0---------0----0-|
C|-----------------1-----------1-------------------|
G|-----------------------1-----------1---------1---|


A|---------------------------------0--2------------|
E|-----4--0-----0---0-----0--------0--0------------|
C|----------------4----------4---------------------|
G|-----------1---------1--------1--2--1------------|



A|-----2--2--2--2--0--0--2--2--2--2--0--0--2--2--0--0--2--2--2--2--2--2--|
E|-----0--0--0--0--0--0--0--0--0--0--0--0--0--0--0--0--0--0--2--2--0--0--|
C|-----4--4--4--4--------4--4--4--4--------4--4--------4--4--------------|
G|-----1--1--1--1--2--2--1--1--1--1--2--2--1--1--2--2--1--1--4--4--4--4--|

A|-----4--4--4--4--7--7--2--2--4--4--4--4--7--7--2--2--7--7--2--2--9--7--7--7
E|-----------------5--5--0--0--------------5--5--0--0--5--5--0--0--7--7--7--7

C|-----6--6--6--6--9--9--4--4--8--8--8--8--9--9--4--4--9--9--4--4--11--11--11--11
G|-----6--6--6--6--------1--1--6--6--6--6--------1--1--------1--1------------
A|-----4--4--4--4--2--2--2--2--4--4--4--4--2--2--2--4--4--4--4--4-
E|-----------------0--0--0--0--------------0--0--0----------------

C|-----4--4--4--4--4--4--4--4--4--4--4--4--4--4--4--4--4--4--4--4-
G|-----1--1--1--1--1--1--1--1--1--1--1--1--1--1--1--1--1--1--1--1-

A|-----2--2--2--2--------2--2--2--2--2--2--------2--2--------2--2----
E|-----0--0--0--0--5--5--0--0--0--0--0--0--5--5--0--0--5--5--0--0----
C|-----------------4--4--------------------4--4--------4--4----------
G|-----1--1--1--1--6--6--1--1--1--1--1--1--6--6--1--1--6--6--1--1----



A|-----------------|
E|-----7--7--7--7--|
C|-----6--6--6--6--|
G|-----8--8--8--8--|



A|-----7--7--7--7--------2--2--7--7--7--7--------2--2--------2--2--
E|-----4--4--4--4--5--5--0--0--4--4--4--4--5--5--0--0--5--5--0--0--
C|-----------------4--4--------------------4--4--------4--4--------
G|-----6--6--6--6--6--6--1--1--6--6--6--6--6--6--1--1--6--6--1--1--



A|-------------------2--|
E|-----7--7--7--7----0--|
C|-----6--6--6--6-------|
G|-----8--8--8--8----1--|
Guitar Tab Creator is intended to store guitar tab created through the tool. It currently does not support in-line text editing. Any text you place in here will be lost. If you need to comment on your tab, please use the "Tab Notes" section located below.