The Cave v1

A|-------------2--4------4------------|
E|---4---2--0---------0----0----------|
C|------------------------------------|
G|-----------------------------4--4---|


A|2--4-----4----------6--------|
E|------0-----0-----0-----2--0-|
C|-----------------------------|
G|---------------4-------------|



A|-------------------------------------------------------4---------------------|
E|---0-----4--5--5--4--0-----4--5--5--4--5--5--4--2--0-----4--2----------------|
C|-----------------------------------------------------------------------------|
G|------4-----------------4----------------------------------------------------|



A|---------------------------------------------------------------4----------|
E|------------4--5--5--4--0--------4--5--5--4--4--5--5--4--2--0-----4--2----|
C|--------------------------------------------------------------------------|
G|---4--6--------------------6----------------------------------------------|



Guitar Tab Creator is intended to store guitar tab created through the tool. It currently does not support in-line text editing. Any text you place in here will be lost. If you need to comment on your tab, please use the "Tab Notes" section located below.