American Standard

(/) Slide Up  (\) Slide Down  (h) Hammer On  (p) Pull Off  (b) Bend (r) Release (v) Vibrato


E|---------------------------------------------------------------------------------------------
B|-----------0--------------------5--------------------3--------------------0h1p0--------------
G|-----0--------0-----0-----0--------0-----0-----0--------0-----0-----0------------0-----0-----
D|--5-----5--------5-----4-----4--------4-----2-----2--------2-----0-----0------------0--------
A|---------------------------------------------------------------------------------------------
E|---------------------------------------------------------------------------------------------



E|-----------------------------------------------
B|--------------------------------------------0--
G|-----------0--------0-----------0-----0--------
D|-----0--------0--------0-----------0-----0-----
A|--3-----3--------3--------3--3-----------------
E|-----------------------------------------------



E|--------------------------
B|--------------------------
G|--0--0--------0--0--------
D|--4--5--0--0--4--5--0--0--
A|--5--7--5--7--5--7--5--7--
E|--------7--8--------7--8--



E|--------------------------------------
B|--------------------------------------
G|-----0-----0--0-----0-----0--0-----0--
D|--0--4--0--5--4--0--4--0--5--4--0--4--
A|--7--5--5--7--5--7--5--5--7--5--7--5--
E|--8-----7--------8-----7--------8-----



E|-----------------
B|-----2-----------
G|-----2--4--7--5--
D|--0--2--4--7--5--
A|--2--0--2--5--3--
E|--3--------------
http://www.guitartabcreator.com
Guitar Tab Creator is intended to store guitar tab created through the tool. It currently does not support in-line text editing. Any text you place in here will be lost. If you need to comment on your tab, please use the "Tab Notes" section located below.