Star Spangled Banner

(/) Slide Up  (\) Slide Down  (h) Hammer On  (p) Pull Off  (b) Bend (r) Release (v) Vibrato


E|------------0-----------------------|-----4--2-0-----------------------------|-
B|-0--------0-----------7b7-5---------|------------4-----2-4-5--5--------------|-
G|---1----1-------------------1-3-4---|-4-4-----------------------4-1----------|-
D|-----2------------------------------|-------------------------------2--------|-
A|------------------------------------|----------------------------------------|-
E|------------------------------------|----------------------------------------|-



E|-4-4-4-5-7--7------5-4-2-4-5--5----|-5-4----2-0------------------------------|-
B|-----------------------------------|------------4--------2-4-5---------------|-
G|-----------------------------------|---------------------------1-3-4---------|-
D|-----------------------------------|-----------------------------------------|-
A|-----------------------------------|-----------------------------------------|-
E|-----------------------------------|-----------------------------------------|-



E|-----------------2--5-4-2----------|---------2-4-5-7------0-2-4-5-2----------|-
B|---5-5-5\4-2-2-2----------5-5\4----|-----5----------------------------5------|-
G|-4---------------------------------|-4-4-------------------------------------|-
D|-----------------------------------|-----------------------------------------|-
A|-----------------------------------|-----------------------------------------|-
E|-----------------------------------|-----------------------------------------|-
http://www.guitartabcreator.com
Guitar Tab Creator is intended to store guitar tab created through the tool. It currently does not support in-line text editing. Any text you place in here will be lost. If you need to comment on your tab, please use the "Tab Notes" section located below.