Carol Of TheBells

(/) Slide Up  (\) Slide Down  (h) Hammer On  (p) Pull Off  (b) Bend (r) Release (v) Vibrato
E|------------------------------------------------------------------------------------------
B|------------------------------------------------------------------------------------------
G|------------------------------------------------------------------------------------------
D|--------9--9--7--------------------------7--9----------9--9--7----------------7----5------
A|-----7-----------10--9--7------7--9--10-------------7-----------10--9--7--------------12--
E|--7------------------------10--------------------7------------------------10--------------



E|------------------
B|------------------
G|--9--7------------
D|--------10--9-----
A|---------------1--
E|------------------



E|--------------------------------------------------------------------------------------------------
B|--8--7--8-----8--7--8-----8--7--8-----8--7--8-----12--10--12------12--10--12------12--10--12------
G|-----------9-----------9-----------9-----------9--------------12--------------12--------------12--
D|--------------------------------------------------------------------------------------------------
A|--------------------------------------------------------------------------------------------------
E|--------------------------------------------------------------------------------------------------



E|------------------
B|--12--10--12------
G|--------------12--
D|------------------
A|------------------
E|------------------



E|--12--12--12--10----------------------------------
B|------------------11--12--12--12--12--12--12--10--
G|--------------------------------------------------
D|--------------------------------------------------
A|--------------------------------------------------
E|--------------------------------------------------



E|--12--12--12--10--------------------------
B|------------------13--12--12--12--10------
G|--------------------------------------12--
D|------------------------------------------
A|------------------------------------------
E|------------------------------------------
http://www.guitartabcreator.com
Guitar Tab Creator is intended to store guitar tab created through the tool. It currently does not support in-line text editing. Any text you place in here will be lost. If you need to comment on your tab, please use the "Tab Notes" section located below.