Bog sie rodzi by Rockday

(/) Slide Up  (\) Slide Down  (h) Hammer On  (p) Pull Off  (b) Bend (r) Release (v) Vibrato
E|-----------------------------------------------------------
B|-----------------------------------------------------------
G|-----9--9--8--6--6--6--6--------------9--------------------
D|--------------------------9--7--6--9-----9--7--6--6--------
A|--7--------------------------------------------------9--9--
E|-----------------------------------------------------------



E|--------------------------------------------------------------------------------------------------
B|--------------------------------------------------------------------------------------------------
G|--------------------------------------------------------------------------------------------------
D|--7-----6--7--9--9--6--9--7-----6--7--9--9--6--9--7-----6--7--9--9--6--9--7-----6--7--9-----------
A|-----9-----------------------9-----------------------9-----------------------9-----------6--9--7--
E|--------------------------------------------------------------------------------------------------
http://www.guitartabcreator.com
Guitar Tab Creator is intended to store guitar tab created through the tool. It currently does not support in-line text editing. Any text you place in here will be lost. If you need to comment on your tab, please use the "Tab Notes" section located below.