Riff Abril 1

(/) Slide Up  (\) Slide Down  (h) Hammer On  (p) Pull Off  (b) Bend (r) Release (v) Vibrato
E|--------------------------------------3--3--3--3--
B|--------------------------------------4--4--4--4--
G|--------------------------------------5--5--5--5--
D|--3--3--3--5--5--5--6--6--6--5--5--5--3--3--3--3--
A|--3--3--3--3--3--3--3--3--3--3--3--3--3--3--3--3--
E|--3--3--3--3--3--3--3--3--3--3--3--3--3--3--3--3--



E|--------------------
B|--6--6--6--6--6-----
G|--5--5--5--5--5-----
D|--6--6--6--6--6-----
A|--4--4--4--4--4-----
E|--------------------



E|------------------------------------------------------
B|------------------------------------------------------
G|--6--6--6--8--8--8--10--10--10--6--6--6--5h6p5--3-----
D|---------------------------------------------------6--
A|--4--4--4--6--6--6--8---8---8---4--4--4---------------
E|------------------------------------------------------



E|--3-----------4--
B|--4--3--------6--
G|--3--1--------5--
D|--5--3--4--4--4--
A|--3--2--4--4--4--
E|--------4--4--4--
http://www.guitartabcreator.com
Guitar Tab Creator is intended to store guitar tab created through the tool. It currently does not support in-line text editing. Any text you place in here will be lost. If you need to comment on your tab, please use the "Tab Notes" section located below.