Casting of the Lots - bass tab

(/) Slide Up  (\) Slide Down  (h) Hammer On  (p) Pull Off  (b) Bend (r) Release (v) Vibrato


E|-----------------------------------------------
B|-----------------------------------------------
G|-----------------------------------------------
D|--------------------------7-----7-----2--2--0--
A|-----------5-----5--5--5-----5-----5--0--0--0--
E|--0--0--3-----3--------------------------------



E|----------------------------------------------------------------------
B|----------------------------------------------------------------------
G|----------------------------------------------------------------------
D|--------2--2-----------2----2--2--------2--2--------------------------
A|--------0--0-----5-----0----0--0--------0--0--------------5-----5-----
E|--0--0--------3-----3-------------0--0--------3--3--3--3-----3-----3--



E|-------------------------------------------------
B|-------------------------------------------------
G|-------------------------------------------------
D|----------------------------7-----7-----2--2--0--
A|-----------5-----5----5--5-----5-----5--0--0--0--
E|--0--0--3-----3----------------------------------



E|----------------------------------------------------------------------
B|----------------------------------------------------------------------
G|----------------------------------------------------------------------
D|--------2--2-----------2----2--2--------2--2--------------------------
A|--------0--0-----5-----0----0--0--------0--0--------------------------
E|--0--0--------3-----3-------------0--0--------3--3--3--3--3--3--3--3--



E|--------------------------------
B|--------------------------------
G|--------------------------------
D|--------------------------------
A|--------------5--5--0--0--0--0--
E|--0--0--3--3--------------------
http://www.guitartabcreator.com
Guitar Tab Creator is intended to store guitar tab created through the tool. It currently does not support in-line text editing. Any text you place in here will be lost. If you need to comment on your tab, please use the "Tab Notes" section located below.