Casting of the Lots

(/) Slide Up  (\) Slide Down  (h) Hammer On  (p) Pull Off  (b) Bend (r) Release (v) Vibrato
E|---------------------------------------------------------------------------------------------
B|--------------------2--2h3p2--0--------------------2--2--2--0--------------------2--2--2--0--
G|--------------7--7--2------------------------7--7--2--2--2--0--------------7--7--2--2--2--0--
D|--------5--5--7--7--2------------------5--5--7--7--2--2--2--0--------5--5--7--7--2--2--2--0--
A|--2--2--5--5--5--5--0------------2--2--5--5--5--5--0--0--0--0--2--2--5--5--5--5--0--0--0--0--
E|--0--0--3--3---------------------0--0--3--3--------------------0--0--3--3--------------------



E|-----------------------------------------------------------------------------------------------
B|--------2--2--------2--2--2--0--------2--2--------------------------------------------------2--
G|--------2--2--------2--2--2--0--------2--2--------------------------------------------7--7--2--
D|--------2--2--5--5--2--2--2--0--------2--2--5--5--5--5--5--5--5--5--5-----------5--5--7--7--2--
A|--2--2--0--0--5--5--0--0--0--0--2--2--0--0--5--5--5--5--5--5--5--5--5--0--2--2--5--5--5--5--0--
E|--0--0--------3--3--------------0--0--------3--3--3--3--3--3--3--3--3--0--0--0--3--3-----------



E|-----------------------------------------------------------------------------------------------
B|--2--2--0--------2--2--------2--2--2--0--------2--2--------------------------------------------
G|--2--2--0--------2--2--------2--2--2--0--------2--2-----------------------------------------7--
D|--2--2--0--------2--2--5--5--2--2--2--0--------2--2--5--5--5--5--5--5--5--5-----------5--5--7--
A|--0--0--0--2--2--0--0--5--5--0--0--0--0--2--2--0--0--5--5--5--5--5--5--5--5--0--2--2--5--5--5--
E|-----------0--0--------3--3--------------0--0--------3--3--3--3--3--3--3--3--0--0--0--3--3-----



E|------------------------------------------------
B|-----2--2--2--0--------------------2--2h3p2--0--
G|--7--2--2--2--0--------------7--7--2------------
D|--7--2--2--2--0--------5--5--7--7--2------------
A|--5--0--0--0--0--2--2--5--5--5--5--0------------
E|-----------------0--0--3--3---------------------
http://www.guitartabcreator.com
Guitar Tab Creator is intended to store guitar tab created through the tool. It currently does not support in-line text editing. Any text you place in here will be lost. If you need to comment on your tab, please use the "Tab Notes" section located below.