Sakto - Mayonnaise

(/) Slide Up  (\) Slide Down  (h) Hammer On  (p) Pull Off  (b) Bend (r) Release (v) Vibrato
E|---------------
B|---------------
G|-----8-----13--
D|--2-----7------
A|--2--6--7--11--
E|--0-----5------



E|---------
B|---------
G|---------
D|--11--7--
A|--11--7--
E|--9---5--



E|--------------------------
B|--------------------------
G|--------------------7-----
D|--4--7--7--7--4--7--7--7--
A|--4--7--7--7--4--7--5--7--
E|--2--4--5--4--2--4-----5--



E|-----------------
B|-----------------
G|--1--2--1--7-----
D|--2--2--2--7--7--
A|--2--0--2--5--7--
E|--0-----0-----5--



E|--------------------------------------------------------------------------------------------
B|--------------------------------------------------------------------------------------------
G|--------------------------------------------------------------------------------------------
D|--------------------------------------------------------------------------------------------
A|--7--7--7--6--6--6--4--4--4--2--2--2-----------------------------------------------7--6--7--
E|--------------------------------------4--5--7--5--5--5--4--4--4--2--2--2--0--0--0-----------
http://www.guitartabcreator.com
Guitar Tab Creator is intended to store guitar tab created through the tool. It currently does not support in-line text editing. Any text you place in here will be lost. If you need to comment on your tab, please use the "Tab Notes" section located below.