Vatican Virgins intro riff.

(/) Slide Up  (\) Slide Down  (h) Hammer On  (p) Pull Off  (b) Bend (r) Release (v) Vibrato

E|-----------------------------------------------------------------------------------------------------
B|-----------------------------------------------------------------------------------------------------
G|-----------------------------------------------------------------------------------------------------
D|--------------------------------------------------------------------------------------------4--5-----
A|--2-----------3-----------2-----------5--3--2-----------2-----------2-----------2-----------4--5-----
E|--0--3--2--3-----0--2--3-----3--2--3-----------5--3--2--0--0--0--0--0--0--0--0--0--0--0--0--2--3-----



E|-----------------------------------------------
B|-----------------------------------------------
G|--------------------------------------6--5-----
D|--------------------------------------4--3--5--
A|--2-----------2-----------2-----------------3--
E|--0--0--0--0--0--0--0--0--0--0--0--0-----------
http://www.guitartabcreator.com
Guitar Tab Creator is intended to store guitar tab created through the tool. It currently does not support in-line text editing. Any text you place in here will be lost. If you need to comment on your tab, please use the "Tab Notes" section located below.